ISO-10303-21;
HEADER;
FILE_DESCRIPTION (( 'STEP AP203' ),
    '1' );
FILE_NAME ('Q-AZHWP-20-1053-M.STEP',
    '2020-12-22T09:07:48',
    ( '' ),
    ( '' ),
    'SwSTEP 2.0',
    'SolidWorks 2020',
    '' );
FILE_SCHEMA (( 'CONFIG_CONTROL_DESIGN' ));
ENDSEC;

DATA;
#1 = CC_DESIGN_DATE_AND_TIME_ASSIGNMENT ( #224, #253, ( #264 ) ) ;
#2 = PLANE ( 'NONE',  #173 ) ;
#3 = DIRECTION ( 'NONE',  ( -1.000000000000000000, -0.000000000000000000, -0.000000000000000000 ) ) ;
#4 = FACE_OUTER_BOUND ( 'NONE', #77, .T. ) ;
#5 = CARTESIAN_POINT ( 'NONE',  ( -1.614212418857619014, 0.000000000000000000, 0.000000000000000000 ) ) ;
#6 = CARTESIAN_POINT ( 'NONE',  ( 3.000000000000000000, 0.000000000000000000, 0.000000000000000000 ) ) ;
#7 = ADVANCED_FACE ( 'NONE', ( #29 ), #315, .T. ) ;
#8 = VECTOR ( 'NONE', #323, 1000.000000000000000 ) ;
#9 = LOCAL_TIME ( 17, 7, 48.00000000000000000, #150 ) ;
#10 = DIRECTION ( 'NONE',  ( 1.000000000000000000, 0.000000000000000000, 0.000000000000000000 ) ) ;
#11 = EDGE_CURVE ( 'NONE', #92, #326, #306, .T. ) ;
#12 = DIRECTION ( 'NONE',  ( -1.000000000000000000, -0.000000000000000000, -0.000000000000000000 ) ) ;
#13 = CC_DESIGN_PERSON_AND_ORGANIZATION_ASSIGNMENT ( #327, #156, ( #264 ) ) ;
#14 = CARTESIAN_POINT ( 'NONE',  ( -2.500000000000000444, 0.000000000000000000, 0.000000000000000000 ) ) ;
#15 = CARTESIAN_POINT ( 'NONE',  ( 3.000000000000000000, 0.000000000000000000, 12.69999999999999929 ) ) ;
#16 = ORIENTED_EDGE ( 'NONE', *, *, #190, .T. ) ;
#17 = CYLINDRICAL_SURFACE ( 'NONE', #98, 10.00000000000000000 ) ;
#18 = ORIENTED_EDGE ( 'NONE', *, *, #178, .F. ) ;
#19 = COORDINATED_UNIVERSAL_TIME_OFFSET ( 8, 0, .AHEAD. ) ;
#20 = CIRCLE ( 'NONE', #254, 10.00000000000000000 ) ;
#21 = PERSON_AND_ORGANIZATION ( #246, #159 ) ;
#22 = ADVANCED_FACE ( 'NONE', ( #163, #290 ), #187, .F. ) ;
#23 = PERSON_AND_ORGANIZATION_ROLE ( 'design_supplier' ) ;
#24 = CALENDAR_DATE ( 2020, 22, 12 ) ;
#25 = CALENDAR_DATE ( 2020, 22, 12 ) ;
#26 = ORIENTED_EDGE ( 'NONE', *, *, #52, .T. ) ;
#27 = CC_DESIGN_DATE_AND_TIME_ASSIGNMENT ( #257, #43, ( #55 ) ) ;
#28 = ORIENTED_EDGE ( 'NONE', *, *, #202, .T. ) ;
#29 = FACE_OUTER_BOUND ( 'NONE', #147, .T. ) ;
#30 = ORIENTED_EDGE ( 'NONE', *, *, #178, .T. ) ;
#31 = SHAPE_DEFINITION_REPRESENTATION ( #216, #333 ) ;
#32 = CARTESIAN_POINT ( 'NONE',  ( -1.614212418857619014, 1.555301434917138433E-15, -12.69999999999999929 ) ) ;
#33 = DIRECTION ( 'NONE',  ( -1.000000000000000000, -0.000000000000000000, -0.000000000000000000 ) ) ;
#34 = DIRECTION ( 'NONE',  ( -0.000000000000000000, 0.000000000000000000, 1.000000000000000000 ) ) ;
#35 = CIRCLE ( 'NONE', #90, 10.00000000000000000 ) ;
#36 = CARTESIAN_POINT ( 'NONE',  ( -1.614212418857619014, 0.000000000000000000, 10.00000000000000000 ) ) ;
#37 = LINE ( 'NONE', #36, #126 ) ;
#38 = EDGE_CURVE ( 'NONE', #191, #271, #234, .T. ) ;
#39 = CARTESIAN_POINT ( 'NONE',  ( 3.000000000000000000, 1.555301434917138433E-15, -12.69999999999999929 ) ) ;
#40 = EDGE_LOOP ( 'NONE', ( #171, #266 ) ) ;
#41 = DIRECTION ( 'NONE',  ( -1.000000000000000000, -0.000000000000000000, -0.000000000000000000 ) ) ;
#42 = ORIENTED_EDGE ( 'NONE', *, *, #165, .T. ) ;
#43 = DATE_TIME_ROLE ( 'creation_date' ) ;
#44 = AXIS2_PLACEMENT_3D ( 'NONE', #5, #313, #166 ) ;
#45 = COORDINATED_UNIVERSAL_TIME_OFFSET ( 8, 0, .AHEAD. ) ;
#46 = COORDINATED_UNIVERSAL_TIME_OFFSET ( 8, 0, .AHEAD. ) ;
#47 = PERSON_AND_ORGANIZATION_ROLE ( 'creator' ) ;
#48 = ORIENTED_EDGE ( 'NONE', *, *, #72, .T. ) ;
#49 = AXIS2_PLACEMENT_3D ( 'NONE', #220, #41, #297 ) ;
#50 = CC_DESIGN_APPROVAL ( #93, ( #264 ) ) ;
#51 = EDGE_LOOP ( 'NONE', ( #225, #97 ) ) ;
#52 = EDGE_CURVE ( 'NONE', #175, #92, #286, .T. ) ;
#53 = UNCERTAINTY_MEASURE_WITH_UNIT (LENGTH_MEASURE( 1.000000000000000082E-05 ), #307, 'distance_accuracy_value', 'NONE');
#54 = CYLINDRICAL_SURFACE ( 'NONE', #44, 10.00000000000000000 ) ;
#55 = PRODUCT_DEFINITION ( 'UNKNOWN', '', #127, #60 ) ;
#56 = DATE_AND_TIME ( #24, #294 ) ;
#57 = CYLINDRICAL_SURFACE ( 'NONE', #303, 10.00000000000000000 ) ;
#58 = DIRECTION ( 'NONE',  ( -1.000000000000000000, -0.000000000000000000, -0.000000000000000000 ) ) ;
#59 = FACE_OUTER_BOUND ( 'NONE', #51, .T. ) ;
#60 = DESIGN_CONTEXT ( 'detailed design', #301, 'design' ) ;
#61 = DIRECTION ( 'NONE',  ( 0.000000000000000000, 0.000000000000000000, 1.000000000000000000 ) ) ;
#62 = CIRCLE ( 'NONE', #183, 10.00000000000000000 ) ;
#63 = CARTESIAN_POINT ( 'NONE',  ( -2.500000000000000444, 0.000000000000000000, 0.000000000000000000 ) ) ;
#64 = CYLINDRICAL_SURFACE ( 'NONE', #69, 10.00000000000000000 ) ;
#65 = ORIENTED_EDGE ( 'NONE', *, *, #176, .F. ) ;
#66 = LINE ( 'NONE', #169, #195 ) ;
#67 = ORIENTED_EDGE ( 'NONE', *, *, #222, .F. ) ;
#68 = ADVANCED_FACE ( 'NONE', ( #141 ), #57, .F. ) ;
#69 = AXIS2_PLACEMENT_3D ( 'NONE', #319, #193, #170 ) ;
#70 = DIRECTION ( 'NONE',  ( -1.000000000000000000, -0.000000000000000000, -0.000000000000000000 ) ) ;
#71 = VERTEX_POINT ( 'NONE', #239 ) ;
#72 = EDGE_CURVE ( 'NONE', #310, #175, #130, .T. ) ;
#73 = CALENDAR_DATE ( 2020, 22, 12 ) ;
#74 = APPROVAL ( #332, 'UNSPECIFIED' ) ;
#75 = APPROVAL_ROLE ( '' ) ;
#76 = APPROVAL_STATUS ( 'not_yet_approved' ) ;
#77 = EDGE_LOOP ( 'NONE', ( #251, #67 ) ) ;
#78 = PERSON_AND_ORGANIZATION_ROLE ( 'creator' ) ;
#79 = ORIENTED_EDGE ( 'NONE', *, *, #38, .F. ) ;
#80 = CIRCLE ( 'NONE', #312, 10.00000000000000000 ) ;
#81 = ORIENTED_EDGE ( 'NONE', *, *, #38, .T. ) ;
#82 = DIRECTION ( 'NONE',  ( 0.000000000000000000, 0.000000000000000000, -1.000000000000000000 ) ) ;
#83 = DIRECTION ( 'NONE',  ( -1.000000000000000000, -0.000000000000000000, -0.000000000000000000 ) ) ;
#84 = CARTESIAN_POINT ( 'NONE',  ( 2.500000000000000888, 1.224646799147353256E-15, -10.00000000000000000 ) ) ;
#85 = AXIS2_PLACEMENT_3D ( 'NONE', #99, #203, #228 ) ;
#86 = DIRECTION ( 'NONE',  ( 0.000000000000000000, 0.000000000000000000, 1.000000000000000000 ) ) ;
#87 = FACE_OUTER_BOUND ( 'NONE', #258, .T. ) ;
#88 = ADVANCED_FACE ( 'NONE', ( #59 ), #111, .F. ) ;
#89 = DIRECTION ( 'NONE',  ( -1.000000000000000000, -0.000000000000000000, -0.000000000000000000 ) ) ;
#90 = AXIS2_PLACEMENT_3D ( 'NONE', #142, #12, #143 ) ;
#91 = LINE ( 'NONE', #250, #208 ) ;
#92 = VERTEX_POINT ( 'NONE', #287 ) ;
#93 = APPROVAL ( #101, 'UNSPECIFIED' ) ;
#94 = CARTESIAN_POINT ( 'NONE',  ( 3.000000000000000000, 0.000000000000000000, 0.000000000000000000 ) ) ;
#95 = ORIENTED_EDGE ( 'NONE', *, *, #139, .F. ) ;
#96 = CARTESIAN_POINT ( 'NONE',  ( 2.999999999999999112, 1.224646799147353256E-15, -10.00000000000000000 ) ) ;
#97 = ORIENTED_EDGE ( 'NONE', *, *, #202, .F. ) ;
#98 = AXIS2_PLACEMENT_3D ( 'NONE', #167, #317, #269 ) ;
#99 = CARTESIAN_POINT ( 'NONE',  ( 0.000000000000000000, 0.000000000000000000, 0.000000000000000000 ) ) ;
#100 = CC_DESIGN_PERSON_AND_ORGANIZATION_ASSIGNMENT ( #181, #23, ( #127 ) ) ;
#101 = APPROVAL_STATUS ( 'not_yet_approved' ) ;
#102 = ADVANCED_FACE ( 'NONE', ( #238 ), #54, .F. ) ;
#103 = AXIS2_PLACEMENT_3D ( 'NONE', #6, #115, #113 ) ;
#104 = APPROVAL_DATE_TIME ( #309, #74 ) ;
#105 = ORIENTED_EDGE ( 'NONE', *, *, #192, .F. ) ;
#106 = ORIENTED_EDGE ( 'NONE', *, *, #226, .F. ) ;
#107 = ADVANCED_FACE ( 'NONE', ( #291, #316 ), #211, .F. ) ;
#108 = CARTESIAN_POINT ( 'NONE',  ( -2.500000000000000444, 10.00000000000000000, 0.000000000000000000 ) ) ;
#109 = AXIS2_PLACEMENT_3D ( 'NONE', #311, #33, #263 ) ;
#110 = APPROVAL_PERSON_ORGANIZATION ( #21, #93, #277 ) ;
#111 = PLANE ( 'NONE',  #188 ) ;
#112 = EDGE_LOOP ( 'NONE', ( #16, #223 ) ) ;
#113 = DIRECTION ( 'NONE',  ( 0.000000000000000000, 0.000000000000000000, 1.000000000000000000 ) ) ;
#114 = PRODUCT_RELATED_PRODUCT_CATEGORY ( 'detail', '', ( #243 ) ) ;
#115 = DIRECTION ( 'NONE',  ( -1.000000000000000000, -0.000000000000000000, -0.000000000000000000 ) ) ;
#116 = CARTESIAN_POINT ( 'NONE',  ( -3.000000000000000444, 1.224646799147353256E-15, -10.00000000000000000 ) ) ;
#117 = DIRECTION ( 'NONE',  ( -1.000000000000000000, -0.000000000000000000, -0.000000000000000000 ) ) ;
#118 = CC_DESIGN_PERSON_AND_ORGANIZATION_ASSIGNMENT ( #128, #276, ( #243 ) ) ;
#119 = DIRECTION ( 'NONE',  ( 1.000000000000000000, 0.000000000000000000, 0.000000000000000000 ) ) ;
#120 = DIRECTION ( 'NONE',  ( 0.000000000000000000, 0.000000000000000000, 1.000000000000000000 ) ) ;
#121 = EDGE_LOOP ( 'NONE', ( #79, #205, #136, #30 ) ) ;
#122 = DIRECTION ( 'NONE',  ( -1.000000000000000000, -0.000000000000000000, -0.000000000000000000 ) ) ;
#123 = VERTEX_POINT ( 'NONE', #84 ) ;
#124 = CARTESIAN_POINT ( 'NONE',  ( -3.000000000000000000, 0.000000000000000000, 12.69999999999999929 ) ) ;
#125 = EDGE_LOOP ( 'NONE', ( #18, #105 ) ) ;
#126 = VECTOR ( 'NONE', #89, 1000.000000000000000 ) ;
#127 = PRODUCT_DEFINITION_FORMATION_WITH_SPECIFIED_SOURCE ( 'ANY', '', #243, .NOT_KNOWN. ) ;
#128 = PERSON_AND_ORGANIZATION ( #246, #159 ) ;
#129 =( NAMED_UNIT ( * ) PLANE_ANGLE_UNIT ( ) SI_UNIT ( $, .RADIAN. ) );
#130 = CIRCLE ( 'NONE', #103, 12.69999999999999929 ) ;
#131 = ORIENTED_EDGE ( 'NONE', *, *, #296, .T. ) ;
#132 = APPROVAL_DATE_TIME ( #56, #93 ) ;
#133 = ORIENTED_EDGE ( 'NONE', *, *, #139, .T. ) ;
#134 = ADVANCED_FACE ( 'NONE', ( #4 ), #2, .F. ) ;
#135 = MANIFOLD_SOLID_BREP ( 'Ðý×', #213 ) ;
#136 = ORIENTED_EDGE ( 'NONE', *, *, #162, .T. ) ;
#137 = LOCAL_TIME ( 17, 7, 48.00000000000000000, #46 ) ;
#138 = ORIENTED_EDGE ( 'NONE', *, *, #52, .F. ) ;
#139 = EDGE_CURVE ( 'NONE', #310, #326, #185, .T. ) ;
#140 = DIRECTION ( 'NONE',  ( 0.000000000000000000, 0.000000000000000000, 1.000000000000000000 ) ) ;
#141 = FACE_OUTER_BOUND ( 'NONE', #298, .T. ) ;
#142 = CARTESIAN_POINT ( 'NONE',  ( 2.999999999999999112, 0.000000000000000000, 0.000000000000000000 ) ) ;
#143 = DIRECTION ( 'NONE',  ( 0.000000000000000000, 0.000000000000000000, 1.000000000000000000 ) ) ;
#144 = EDGE_CURVE ( 'NONE', #326, #92, #240, .T. ) ;
#145 = CARTESIAN_POINT ( 'NONE',  ( 2.500000000000000888, 0.000000000000000000, 0.000000000000000000 ) ) ;
#146 = DIRECTION ( 'NONE',  ( -1.000000000000000000, -0.000000000000000000, -0.000000000000000000 ) ) ;
#147 = EDGE_LOOP ( 'NONE', ( #48, #26, #273, #95 ) ) ;
#148 = CARTESIAN_POINT ( 'NONE',  ( 2.999999999999999112, 0.000000000000000000, 10.00000000000000000 ) ) ;
#149 = ORIENTED_EDGE ( 'NONE', *, *, #11, .F. ) ;
#150 = COORDINATED_UNIVERSAL_TIME_OFFSET ( 8, 0, .AHEAD. ) ;
#151 = ORIENTED_EDGE ( 'NONE', *, *, #190, .F. ) ;
#152 = SECURITY_CLASSIFICATION_LEVEL ( 'unclassified' ) ;
#153 = ADVANCED_FACE ( 'NONE', ( #272 ), #17, .F. ) ;
#154 = AXIS2_PLACEMENT_3D ( 'NONE', #63, #10, #302 ) ;
#155 = APPLICATION_PROTOCOL_DEFINITION ( 'international standard', 'config_control_design', 1994, #301 ) ;
#156 = PERSON_AND_ORGANIZATION_ROLE ( 'classification_officer' ) ;
#157 = VERTEX_POINT ( 'NONE', #148 ) ;
#158 = VECTOR ( 'NONE', #83, 1000.000000000000000 ) ;
#159 = ORGANIZATION ( 'UNSPECIFIED', 'UNSPECIFIED', '' ) ;
#160 = CARTESIAN_POINT ( 'NONE',  ( -1.614212418857619014, 0.000000000000000000, 0.000000000000000000 ) ) ;
#161 = CARTESIAN_POINT ( 'NONE',  ( 2.999999999999999112, 12.69999999999999929, 0.000000000000000000 ) ) ;
#162 = EDGE_CURVE ( 'NONE', #71, #197, #37, .T. ) ;
#163 = FACE_BOUND ( 'NONE', #125, .T. ) ;
#164 = ORIENTED_EDGE ( 'NONE', *, *, #261, .F. ) ;
#165 = EDGE_CURVE ( 'NONE', #175, #310, #283, .T. ) ;
#166 = DIRECTION ( 'NONE',  ( 0.000000000000000000, 0.000000000000000000, 1.000000000000000000 ) ) ;
#167 = CARTESIAN_POINT ( 'NONE',  ( -1.614212418857619014, 0.000000000000000000, 0.000000000000000000 ) ) ;
#168 = LOCAL_TIME ( 17, 7, 48.00000000000000000, #19 ) ;
#169 = CARTESIAN_POINT ( 'NONE',  ( -1.614212418857619014, 1.224646799147353256E-15, -10.00000000000000000 ) ) ;
#170 = DIRECTION ( 'NONE',  ( 0.000000000000000000, 0.000000000000000000, 1.000000000000000000 ) ) ;
#171 = ORIENTED_EDGE ( 'NONE', *, *, #72, .F. ) ;
#172 = DIRECTION ( 'NONE',  ( -1.000000000000000000, -0.000000000000000000, -0.000000000000000000 ) ) ;
#173 = AXIS2_PLACEMENT_3D ( 'NONE', #108, #210, #207 ) ;
#174 = CARTESIAN_POINT ( 'NONE',  ( 2.500000000000000888, 0.000000000000000000, 0.000000000000000000 ) ) ;
#175 = VERTEX_POINT ( 'NONE', #39 ) ;
#176 = EDGE_CURVE ( 'NONE', #157, #260, #91, .T. ) ;
#177 = PERSON_AND_ORGANIZATION ( #246, #159 ) ;
#178 = EDGE_CURVE ( 'NONE', #197, #271, #62, .T. ) ;
#179 = AXIS2_PLACEMENT_3D ( 'NONE', #161, #267, #34 ) ;
#180 = COORDINATED_UNIVERSAL_TIME_OFFSET ( 8, 0, .AHEAD. ) ;
#181 = PERSON_AND_ORGANIZATION ( #246, #159 ) ;
#182 = ORIENTED_EDGE ( 'NONE', *, *, #11, .T. ) ;
#183 = AXIS2_PLACEMENT_3D ( 'NONE', #325, #199, #268 ) ;
#184 = APPROVAL_PERSON_ORGANIZATION ( #280, #74, #75 ) ;
#185 = LINE ( 'NONE', #218, #8 ) ;
#186 = DIRECTION ( 'NONE',  ( -1.000000000000000000, -0.000000000000000000, -0.000000000000000000 ) ) ;
#187 = PLANE ( 'NONE',  #248 ) ;
#188 = AXIS2_PLACEMENT_3D ( 'NONE', #214, #189, #209 ) ;
#189 = DIRECTION ( 'NONE',  ( -1.000000000000000000, 0.000000000000000000, -0.000000000000000000 ) ) ;
#190 = EDGE_CURVE ( 'NONE', #157, #206, #35, .T. ) ;
#191 = VERTEX_POINT ( 'NONE', #292 ) ;
#192 = EDGE_CURVE ( 'NONE', #271, #197, #80, .T. ) ;
#193 = DIRECTION ( 'NONE',  ( -1.000000000000000000, -0.000000000000000000, -0.000000000000000000 ) ) ;
#194 = DIRECTION ( 'NONE',  ( 0.000000000000000000, 0.000000000000000000, 1.000000000000000000 ) ) ;
#195 = VECTOR ( 'NONE', #117, 1000.000000000000000 ) ;
#196 = DIRECTION ( 'NONE',  ( -1.000000000000000000, -0.000000000000000000, -0.000000000000000000 ) ) ;
#197 = VERTEX_POINT ( 'NONE', #221 ) ;
#198 = DIRECTION ( 'NONE',  ( 0.000000000000000000, 0.000000000000000000, 1.000000000000000000 ) ) ;
#199 = DIRECTION ( 'NONE',  ( -1.000000000000000000, -0.000000000000000000, -0.000000000000000000 ) ) ;
#200 = CC_DESIGN_APPROVAL ( #74, ( #55 ) ) ;
#201 = MECHANICAL_CONTEXT ( 'NONE', #212, 'mechanical' ) ;
#202 = EDGE_CURVE ( 'NONE', #123, #260, #20, .T. ) ;
#203 = DIRECTION ( 'NONE',  ( 0.000000000000000000, 0.000000000000000000, 1.000000000000000000 ) ) ;
#204 = PERSON_AND_ORGANIZATION ( #246, #159 ) ;
#205 = ORIENTED_EDGE ( 'NONE', *, *, #222, .T. ) ;
#206 = VERTEX_POINT ( 'NONE', #96 ) ;
#207 = DIRECTION ( 'NONE',  ( 0.000000000000000000, 0.000000000000000000, -1.000000000000000000 ) ) ;
#208 = VECTOR ( 'NONE', #70, 1000.000000000000000 ) ;
#209 = DIRECTION ( 'NONE',  ( -0.000000000000000000, 0.000000000000000000, 1.000000000000000000 ) ) ;
#210 = DIRECTION ( 'NONE',  ( 1.000000000000000000, 0.000000000000000000, 0.000000000000000000 ) ) ;
#211 = PLANE ( 'NONE',  #179 ) ;
#212 = APPLICATION_CONTEXT ( 'configuration controlled 3d designs of mechanical parts and assemblies' ) ;
#213 = CLOSED_SHELL ( 'NONE', ( #7, #102, #285, #88, #68, #153, #22, #318, #107, #134 ) ) ;
#214 = CARTESIAN_POINT ( 'NONE',  ( 2.500000000000000444, 10.00000000000000000, 0.000000000000000000 ) ) ;
#215 = FACE_OUTER_BOUND ( 'NONE', #308, .T. ) ;
#216 = PRODUCT_DEFINITION_SHAPE ( 'NONE', 'NONE',  #55 ) ;
#217 = CARTESIAN_POINT ( 'NONE',  ( 2.500000000000000888, 0.000000000000000000, 10.00000000000000000 ) ) ;
#218 = CARTESIAN_POINT ( 'NONE',  ( -1.614212418857619014, 0.000000000000000000, 12.69999999999999929 ) ) ;
#219 =( GEOMETRIC_REPRESENTATION_CONTEXT ( 3 ) GLOBAL_UNCERTAINTY_ASSIGNED_CONTEXT ( ( #53 ) ) GLOBAL_UNIT_ASSIGNED_CONTEXT ( ( #307, #129, #229 ) ) REPRESENTATION_CONTEXT ( 'NONE', 'WORKASPACE' ) );
#220 = CARTESIAN_POINT ( 'NONE',  ( -3.000000000000000000, 0.000000000000000000, 0.000000000000000000 ) ) ;
#221 = CARTESIAN_POINT ( 'NONE',  ( -3.000000000000000444, 0.000000000000000000, 10.00000000000000000 ) ) ;
#222 = EDGE_CURVE ( 'NONE', #191, #71, #293, .T. ) ;
#223 = ORIENTED_EDGE ( 'NONE', *, *, #261, .T. ) ;
#224 = DATE_AND_TIME ( #330, #168 ) ;
#225 = ORIENTED_EDGE ( 'NONE', *, *, #235, .F. ) ;
#226 = EDGE_CURVE ( 'NONE', #206, #123, #66, .T. ) ;
#227 = APPROVAL_ROLE ( '' ) ;
#228 = DIRECTION ( 'NONE',  ( 1.000000000000000000, 0.000000000000000000, 0.000000000000000000 ) ) ;
#229 =( NAMED_UNIT ( * ) SI_UNIT ( $, .STERADIAN. ) SOLID_ANGLE_UNIT ( ) );
#230 = AXIS2_PLACEMENT_3D ( 'NONE', #288, #186, #86 ) ;
#231 = AXIS2_PLACEMENT_3D ( 'NONE', #245, #146, #299 ) ;
#232 = CC_DESIGN_PERSON_AND_ORGANIZATION_ASSIGNMENT ( #252, #78, ( #127 ) ) ;
#233 = CARTESIAN_POINT ( 'NONE',  ( -1.614212418857619014, 1.224646799147353256E-15, -10.00000000000000000 ) ) ;
#234 = LINE ( 'NONE', #233, #320 ) ;
#235 = EDGE_CURVE ( 'NONE', #260, #123, #278, .T. ) ;
#236 = CC_DESIGN_APPROVAL ( #331, ( #127 ) ) ;
#237 = DIRECTION ( 'NONE',  ( 1.000000000000000000, 0.000000000000000000, 0.000000000000000000 ) ) ;
#238 = FACE_OUTER_BOUND ( 'NONE', #265, .T. ) ;
#239 = CARTESIAN_POINT ( 'NONE',  ( -2.500000000000000444, 0.000000000000000000, 10.00000000000000000 ) ) ;
#240 = CIRCLE ( 'NONE', #49, 12.69999999999999929 ) ;
#241 = APPROVAL_PERSON_ORGANIZATION ( #204, #331, #227 ) ;
#242 = DIRECTION ( 'NONE',  ( -1.000000000000000000, -0.000000000000000000, -0.000000000000000000 ) ) ;
#243 = PRODUCT ( 'Q-AZHWP-20-1053-M', 'Q-AZHWP-20-1053-M', '', ( #201 ) ) ;
#244 = CARTESIAN_POINT ( 'NONE',  ( -3.000000000000000444, 0.000000000000000000, 0.000000000000000000 ) ) ;
#245 = CARTESIAN_POINT ( 'NONE',  ( 2.999999999999999112, 0.000000000000000000, 0.000000000000000000 ) ) ;
#246 = PERSON ( 'UNSPECIFIED', 'UNSPECIFIED', 'UNSPECIFIED', ('UNSPECIFIED'), ('UNSPECIFIED'), ('UNSPECIFIED') ) ;
#247 = DIRECTION ( 'NONE',  ( 0.000000000000000000, 0.000000000000000000, -1.000000000000000000 ) ) ;
#248 = AXIS2_PLACEMENT_3D ( 'NONE', #314, #237, #82 ) ;
#249 = CC_DESIGN_SECURITY_CLASSIFICATION ( #264, ( #127 ) ) ;
#250 = CARTESIAN_POINT ( 'NONE',  ( -1.614212418857619014, 0.000000000000000000, 10.00000000000000000 ) ) ;
#251 = ORIENTED_EDGE ( 'NONE', *, *, #296, .F. ) ;
#252 = PERSON_AND_ORGANIZATION ( #246, #159 ) ;
#253 = DATE_TIME_ROLE ( 'classification_date' ) ;
#254 = AXIS2_PLACEMENT_3D ( 'NONE', #145, #242, #295 ) ;
#255 = AXIS2_PLACEMENT_3D ( 'NONE', #174, #274, #198 ) ;
#256 = APPROVAL_DATE_TIME ( #334, #331 ) ;
#257 = DATE_AND_TIME ( #73, #259 ) ;
#258 = EDGE_LOOP ( 'NONE', ( #138, #42, #133, #149 ) ) ;
#259 = LOCAL_TIME ( 17, 7, 48.00000000000000000, #180 ) ;
#260 = VERTEX_POINT ( 'NONE', #217 ) ;
#261 = EDGE_CURVE ( 'NONE', #206, #157, #289, .T. ) ;
#262 = CC_DESIGN_PERSON_AND_ORGANIZATION_ASSIGNMENT ( #177, #47, ( #55 ) ) ;
#263 = DIRECTION ( 'NONE',  ( 0.000000000000000000, 0.000000000000000000, 1.000000000000000000 ) ) ;
#264 = SECURITY_CLASSIFICATION ( '', '', #152 ) ;
#265 = EDGE_LOOP ( 'NONE', ( #131, #81, #322, #282 ) ) ;
#266 = ORIENTED_EDGE ( 'NONE', *, *, #165, .F. ) ;
#267 = DIRECTION ( 'NONE',  ( -1.000000000000000000, 0.000000000000000000, -0.000000000000000000 ) ) ;
#268 = DIRECTION ( 'NONE',  ( 0.000000000000000000, 0.000000000000000000, 1.000000000000000000 ) ) ;
#269 = DIRECTION ( 'NONE',  ( 0.000000000000000000, 0.000000000000000000, 1.000000000000000000 ) ) ;
#270 = CARTESIAN_POINT ( 'NONE',  ( -1.614212418857619014, 0.000000000000000000, 0.000000000000000000 ) ) ;
#271 = VERTEX_POINT ( 'NONE', #116 ) ;
#272 = FACE_OUTER_BOUND ( 'NONE', #121, .T. ) ;
#273 = ORIENTED_EDGE ( 'NONE', *, *, #144, .F. ) ;
#274 = DIRECTION ( 'NONE',  ( -1.000000000000000000, -0.000000000000000000, -0.000000000000000000 ) ) ;
#275 = ORIENTED_EDGE ( 'NONE', *, *, #144, .T. ) ;
#276 = PERSON_AND_ORGANIZATION_ROLE ( 'design_owner' ) ;
#277 = APPROVAL_ROLE ( '' ) ;
#278 = CIRCLE ( 'NONE', #255, 10.00000000000000000 ) ;
#279 = CALENDAR_DATE ( 2020, 22, 12 ) ;
#280 = PERSON_AND_ORGANIZATION ( #246, #159 ) ;
#281 = ORIENTED_EDGE ( 'NONE', *, *, #226, .T. ) ;
#282 = ORIENTED_EDGE ( 'NONE', *, *, #162, .F. ) ;
#283 = CIRCLE ( 'NONE', #328, 12.69999999999999929 ) ;
#284 = CIRCLE ( 'NONE', #304, 10.00000000000000000 ) ;
#285 = ADVANCED_FACE ( 'NONE', ( #215 ), #64, .F. ) ;
#286 = LINE ( 'NONE', #32, #158 ) ;
#287 = CARTESIAN_POINT ( 'NONE',  ( -3.000000000000000000, 1.555301434917138433E-15, -12.69999999999999929 ) ) ;
#288 = CARTESIAN_POINT ( 'NONE',  ( -1.614212418857619014, 0.000000000000000000, 0.000000000000000000 ) ) ;
#289 = CIRCLE ( 'NONE', #231, 10.00000000000000000 ) ;
#290 = FACE_OUTER_BOUND ( 'NONE', #300, .T. ) ;
#291 = FACE_OUTER_BOUND ( 'NONE', #40, .T. ) ;
#292 = CARTESIAN_POINT ( 'NONE',  ( -2.500000000000000444, 1.224646799147353256E-15, -10.00000000000000000 ) ) ;
#293 = CIRCLE ( 'NONE', #154, 10.00000000000000000 ) ;
#294 = LOCAL_TIME ( 17, 7, 48.00000000000000000, #45 ) ;
#295 = DIRECTION ( 'NONE',  ( 0.000000000000000000, 0.000000000000000000, 1.000000000000000000 ) ) ;
#296 = EDGE_CURVE ( 'NONE', #71, #191, #284, .T. ) ;
#297 = DIRECTION ( 'NONE',  ( 0.000000000000000000, 0.000000000000000000, 1.000000000000000000 ) ) ;
#298 = EDGE_LOOP ( 'NONE', ( #106, #151, #335, #324 ) ) ;
#299 = DIRECTION ( 'NONE',  ( 0.000000000000000000, 0.000000000000000000, 1.000000000000000000 ) ) ;
#300 = EDGE_LOOP ( 'NONE', ( #275, #182 ) ) ;
#301 = APPLICATION_CONTEXT ( 'configuration controlled 3d designs of mechanical parts and assemblies' ) ;
#302 = DIRECTION ( 'NONE',  ( 0.000000000000000000, 0.000000000000000000, -1.000000000000000000 ) ) ;
#303 = AXIS2_PLACEMENT_3D ( 'NONE', #160, #3, #140 ) ;
#304 = AXIS2_PLACEMENT_3D ( 'NONE', #14, #119, #247 ) ;
#305 = APPLICATION_PROTOCOL_DEFINITION ( 'international standard', 'config_control_design', 1994, #212 ) ;
#306 = CIRCLE ( 'NONE', #109, 12.69999999999999929 ) ;
#307 =( LENGTH_UNIT ( ) NAMED_UNIT ( * ) SI_UNIT ( .MILLI., .METRE. ) );
#308 = EDGE_LOOP ( 'NONE', ( #164, #281, #28, #65 ) ) ;
#309 = DATE_AND_TIME ( #279, #9 ) ;
#310 = VERTEX_POINT ( 'NONE', #15 ) ;
#311 = CARTESIAN_POINT ( 'NONE',  ( -3.000000000000000000, 0.000000000000000000, 0.000000000000000000 ) ) ;
#312 = AXIS2_PLACEMENT_3D ( 'NONE', #244, #122, #61 ) ;
#313 = DIRECTION ( 'NONE',  ( -1.000000000000000000, -0.000000000000000000, -0.000000000000000000 ) ) ;
#314 = CARTESIAN_POINT ( 'NONE',  ( -3.000000000000000000, 10.00000000000000000, 0.000000000000000000 ) ) ;
#315 = CYLINDRICAL_SURFACE ( 'NONE', #230, 12.69999999999999929 ) ;
#316 = FACE_BOUND ( 'NONE', #112, .T. ) ;
#317 = DIRECTION ( 'NONE',  ( -1.000000000000000000, -0.000000000000000000, -0.000000000000000000 ) ) ;
#318 = ADVANCED_FACE ( 'NONE', ( #87 ), #321, .T. ) ;
#319 = CARTESIAN_POINT ( 'NONE',  ( -1.614212418857619014, 0.000000000000000000, 0.000000000000000000 ) ) ;
#320 = VECTOR ( 'NONE', #58, 1000.000000000000000 ) ;
#321 = CYLINDRICAL_SURFACE ( 'NONE', #329, 12.69999999999999929 ) ;
#322 = ORIENTED_EDGE ( 'NONE', *, *, #192, .T. ) ;
#323 = DIRECTION ( 'NONE',  ( -1.000000000000000000, -0.000000000000000000, -0.000000000000000000 ) ) ;
#324 = ORIENTED_EDGE ( 'NONE', *, *, #235, .T. ) ;
#325 = CARTESIAN_POINT ( 'NONE',  ( -3.000000000000000444, 0.000000000000000000, 0.000000000000000000 ) ) ;
#326 = VERTEX_POINT ( 'NONE', #124 ) ;
#327 = PERSON_AND_ORGANIZATION ( #246, #159 ) ;
#328 = AXIS2_PLACEMENT_3D ( 'NONE', #94, #196, #194 ) ;
#329 = AXIS2_PLACEMENT_3D ( 'NONE', #270, #172, #120 ) ;
#330 = CALENDAR_DATE ( 2020, 22, 12 ) ;
#331 = APPROVAL ( #76, 'UNSPECIFIED' ) ;
#332 = APPROVAL_STATUS ( 'not_yet_approved' ) ;
#333 = ADVANCED_BREP_SHAPE_REPRESENTATION ( 'Q-AZHWP-20-1053-M', ( #135, #85 ), #219 ) ;
#334 = DATE_AND_TIME ( #25, #137 ) ;
#335 = ORIENTED_EDGE ( 'NONE', *, *, #176, .T. ) ;
ENDSEC;
END-ISO-10303-21;
